ISO-10303-21;
HEADER;
FILE_DESCRIPTION (( 'STEP AP203' ),
    '1' );
FILE_NAME ('250530 STEP 1-400392-01 0617.STEP',
    '2025-05-30T09:26:52',
    ( '' ),
    ( '' ),
    'SwSTEP 2.0',
    'SolidWorks 2024',
    '' );
FILE_SCHEMA (( 'CONFIG_CONTROL_DESIGN' ));
ENDSEC;

DATA;
#1 = CALENDAR_DATE ( 2025, 30, 5 ) ;
#2 = CARTESIAN_POINT ( 'NONE',  ( 9.928203230275503444, 0.000000000000000000, 16.00000000000000000 ) ) ;
#3 = CARTESIAN_POINT ( 'NONE',  ( 0.2999999999999999889, 0.000000000000000000, 10.99999999999999822 ) ) ;
#4 = CC_DESIGN_DATE_AND_TIME_ASSIGNMENT ( #171, #19, ( #128 ) ) ;
#5 = CARTESIAN_POINT ( 'NONE',  ( 14.00000000000000000, 0.000000000000000000, 11.29999999999999716 ) ) ;
#6 = AXIS2_PLACEMENT_3D ( 'NONE', #58, #138, #160 ) ;
#7 = DIRECTION ( 'NONE',  ( -1.000000000000000000, -0.000000000000000000, -0.000000000000000000 ) ) ;
#8 = CYLINDRICAL_SURFACE ( 'NONE', #293, 20.00000000000000000 ) ;
#9 = CARTESIAN_POINT ( 'NONE',  ( 2.999999999999997780, 0.000000000000000000, 0.000000000000000000 ) ) ;
#10 = AXIS2_PLACEMENT_3D ( 'NONE', #136, #34, #11 ) ;
#11 = DIRECTION ( 'NONE',  ( 0.000000000000000000, 0.000000000000000000, -1.000000000000000000 ) ) ;
#12 = EDGE_CURVE ( 'NONE', #209, #209, #142, .T. ) ;
#13 = CONICAL_SURFACE ( 'NONE', #174, 19.69999999999998863, 0.7853981633974569387 ) ;
#14 = MANIFOLD_SOLID_BREP ( 'Revolve1', #178 ) ;
#15 = EDGE_LOOP ( 'NONE', ( #17 ) ) ;
#16 = PRODUCT ( '250530 STEP 1-400392-01 0617', '250530 STEP 1-400392-01 0617', '', ( #126 ) ) ;
#17 = ORIENTED_EDGE ( 'NONE', *, *, #47, .T. ) ;
#18 = CARTESIAN_POINT ( 'NONE',  ( 13.69999999999999396, 0.000000000000000000, 0.000000000000000000 ) ) ;
#19 = DATE_TIME_ROLE ( 'creation_date' ) ;
#20 = CARTESIAN_POINT ( 'NONE',  ( 4.071796769724493004, 0.000000000000000000, 0.000000000000000000 ) ) ;
#21 = PERSON_AND_ORGANIZATION ( #282, #327 ) ;
#22 = APPLICATION_PROTOCOL_DEFINITION ( 'international standard', 'config_control_design', 1994, #316 ) ;
#23 = ORIENTED_EDGE ( 'NONE', *, *, #164, .F. ) ;
#24 = AXIS2_PLACEMENT_3D ( 'NONE', #262, #36, #309 ) ;
#25 = EDGE_LOOP ( 'NONE', ( #39 ) ) ;
#26 = APPROVAL_PERSON_ORGANIZATION ( #152, #51, #303 ) ;
#27 = CIRCLE ( 'NONE', #73, 16.00000000000000000 ) ;
#28 = SHAPE_DEFINITION_REPRESENTATION ( #241, #29 ) ;
#29 = ADVANCED_BREP_SHAPE_REPRESENTATION ( '250530 STEP 1-400392-01 0617', ( #14, #278 ), #71 ) ;
#30 = VERTEX_POINT ( 'NONE', #283 ) ;
#31 = CC_DESIGN_PERSON_AND_ORGANIZATION_ASSIGNMENT ( #298, #69, ( #16 ) ) ;
#32 = VERTEX_POINT ( 'NONE', #228 ) ;
#33 = FACE_OUTER_BOUND ( 'NONE', #237, .T. ) ;
#34 = DIRECTION ( 'NONE',  ( 1.000000000000000000, 0.000000000000000000, 0.000000000000000000 ) ) ;
#35 = DIRECTION ( 'NONE',  ( 0.000000000000000000, 0.000000000000000000, 1.000000000000000000 ) ) ;
#36 = DIRECTION ( 'NONE',  ( -1.000000000000000000, -0.000000000000000000, -0.000000000000000000 ) ) ;
#37 = ORIENTED_EDGE ( 'NONE', *, *, #249, .T. ) ;
#38 = EDGE_LOOP ( 'NONE', ( #53 ) ) ;
#39 = ORIENTED_EDGE ( 'NONE', *, *, #264, .F. ) ;
#40 = FACE_OUTER_BOUND ( 'NONE', #15, .T. ) ;
#41 = EDGE_CURVE ( 'NONE', #108, #108, #115, .T. ) ;
#42 = APPROVAL_ROLE ( '' ) ;
#43 = LOCAL_TIME ( 12, 26, 52.00000000000000000, #193 ) ;
#44 = DIRECTION ( 'NONE',  ( 0.000000000000000000, 0.000000000000000000, -1.000000000000000000 ) ) ;
#45 = APPROVAL_DATE_TIME ( #148, #212 ) ;
#46 = AXIS2_PLACEMENT_3D ( 'NONE', #20, #321, #239 ) ;
#47 = EDGE_CURVE ( 'NONE', #180, #180, #27, .T. ) ;
#48 = APPROVAL_STATUS ( 'not_yet_approved' ) ;
#49 = CARTESIAN_POINT ( 'NONE',  ( 0.000000000000000000, 0.000000000000000000, 0.000000000000000000 ) ) ;
#50 = ORIENTED_EDGE ( 'NONE', *, *, #238, .T. ) ;
#51 = APPROVAL ( #156, 'UNSPECIFIED' ) ;
#52 = AXIS2_PLACEMENT_3D ( 'NONE', #84, #186, #61 ) ;
#53 = ORIENTED_EDGE ( 'NONE', *, *, #164, .T. ) ;
#54 = DATE_TIME_ROLE ( 'classification_date' ) ;
#55 = EDGE_CURVE ( 'NONE', #57, #57, #297, .T. ) ;
#56 = VERTEX_POINT ( 'NONE', #157 ) ;
#57 = VERTEX_POINT ( 'NONE', #281 ) ;
#58 = CARTESIAN_POINT ( 'NONE',  ( 13.69999999999999751, 0.000000000000000000, 0.000000000000000000 ) ) ;
#59 = DIRECTION ( 'NONE',  ( -1.000000000000000000, -0.000000000000000000, -0.000000000000000000 ) ) ;
#60 = CC_DESIGN_DATE_AND_TIME_ASSIGNMENT ( #244, #54, ( #146 ) ) ;
#61 = DIRECTION ( 'NONE',  ( -0.000000000000000000, 0.000000000000000000, 1.000000000000000000 ) ) ;
#62 = FACE_OUTER_BOUND ( 'NONE', #199, .T. ) ;
#63 = APPLICATION_CONTEXT ( 'configuration controlled 3d designs of mechanical parts and assemblies' ) ;
#64 = EDGE_LOOP ( 'NONE', ( #88 ) ) ;
#65 = ORIENTED_EDGE ( 'NONE', *, *, #238, .F. ) ;
#66 = APPROVAL ( #48, 'UNSPECIFIED' ) ;
#67 = FACE_BOUND ( 'NONE', #329, .T. ) ;
#68 = CIRCLE ( 'NONE', #172, 19.69999999999998863 ) ;
#69 = PERSON_AND_ORGANIZATION_ROLE ( 'design_owner' ) ;
#70 = DIRECTION ( 'NONE',  ( -1.000000000000000000, -0.000000000000000000, -0.000000000000000000 ) ) ;
#71 =( GEOMETRIC_REPRESENTATION_CONTEXT ( 3 ) GLOBAL_UNCERTAINTY_ASSIGNED_CONTEXT ( ( #247 ) ) GLOBAL_UNIT_ASSIGNED_CONTEXT ( ( #173, #268, #323 ) ) REPRESENTATION_CONTEXT ( 'NONE', 'WORKASPACE' ) );
#72 = EDGE_CURVE ( 'NONE', #134, #134, #288, .T. ) ;
#73 = AXIS2_PLACEMENT_3D ( 'NONE', #222, #299, #326 ) ;
#74 = APPLICATION_PROTOCOL_DEFINITION ( 'international standard', 'config_control_design', 1994, #63 ) ;
#75 = ORIENTED_EDGE ( 'NONE', *, *, #141, .T. ) ;
#76 = ORIENTED_EDGE ( 'NONE', *, *, #314, .T. ) ;
#77 = CONICAL_SURFACE ( 'NONE', #306, 20.00000000000000000, 0.7853981633974511656 ) ;
#78 = EDGE_LOOP ( 'NONE', ( #132 ) ) ;
#79 = CARTESIAN_POINT ( 'NONE',  ( 13.69999999999999751, 0.000000000000000000, 11.00000000000000000 ) ) ;
#80 = DATE_AND_TIME ( #1, #207 ) ;
#81 = VERTEX_POINT ( 'NONE', #158 ) ;
#82 = FACE_OUTER_BOUND ( 'NONE', #127, .T. ) ;
#83 = DIRECTION ( 'NONE',  ( 0.000000000000000000, 0.000000000000000000, 1.000000000000000000 ) ) ;
#84 = CARTESIAN_POINT ( 'NONE',  ( 14.00000000000000000, 11.29999999999999716, 0.000000000000000000 ) ) ;
#85 = CC_DESIGN_APPROVAL ( #51, ( #146 ) ) ;
#86 = DIRECTION ( 'NONE',  ( -1.000000000000000000, -0.000000000000000000, -0.000000000000000000 ) ) ;
#87 = CARTESIAN_POINT ( 'NONE',  ( 0.000000000000000000, 0.000000000000000000, 0.000000000000000000 ) ) ;
#88 = ORIENTED_EDGE ( 'NONE', *, *, #253, .F. ) ;
#89 = ADVANCED_FACE ( 'NONE', ( #94, #208 ), #13, .T. ) ;
#90 = EDGE_LOOP ( 'NONE', ( #37 ) ) ;
#91 = DIRECTION ( 'NONE',  ( 0.000000000000000000, 0.000000000000000000, 1.000000000000000000 ) ) ;
#92 = FACE_OUTER_BOUND ( 'NONE', #165, .T. ) ;
#93 = CONICAL_SURFACE ( 'NONE', #123, 11.29999999999999716, 0.7853981633974481680 ) ;
#94 = FACE_OUTER_BOUND ( 'NONE', #116, .T. ) ;
#95 = PERSON_AND_ORGANIZATION_ROLE ( 'classification_officer' ) ;
#96 = PERSON_AND_ORGANIZATION_ROLE ( 'design_supplier' ) ;
#97 = AXIS2_PLACEMENT_3D ( 'NONE', #87, #258, #188 ) ;
#98 = PERSON_AND_ORGANIZATION_ROLE ( 'creator' ) ;
#99 = DIRECTION ( 'NONE',  ( -1.000000000000000000, -0.000000000000000000, -0.000000000000000000 ) ) ;
#100 = ADVANCED_FACE ( 'NONE', ( #203, #40 ), #167, .T. ) ;
#101 = CARTESIAN_POINT ( 'NONE',  ( 14.00000000000000000, 0.000000000000000000, 0.000000000000000000 ) ) ;
#102 = EDGE_LOOP ( 'NONE', ( #266 ) ) ;
#103 = EDGE_LOOP ( 'NONE', ( #75 ) ) ;
#104 = CARTESIAN_POINT ( 'NONE',  ( 0.2999999999999999889, 0.000000000000000000, 0.000000000000000000 ) ) ;
#105 = VERTEX_POINT ( 'NONE', #305 ) ;
#106 = DIRECTION ( 'NONE',  ( 0.000000000000000000, 0.000000000000000000, 1.000000000000000000 ) ) ;
#107 = CC_DESIGN_PERSON_AND_ORGANIZATION_ASSIGNMENT ( #322, #95, ( #146 ) ) ;
#108 = VERTEX_POINT ( 'NONE', #79 ) ;
#109 = CONICAL_SURFACE ( 'NONE', #6, 11.00000000000000000, 0.7853981633974396193 ) ;
#110 = PLANE ( 'NONE',  #52 ) ;
#111 = CYLINDRICAL_SURFACE ( 'NONE', #248, 20.00000000000000000 ) ;
#112 = CARTESIAN_POINT ( 'NONE',  ( 14.00000000000000000, 0.000000000000000000, 0.000000000000000000 ) ) ;
#113 = LOCAL_TIME ( 12, 26, 52.00000000000000000, #175 ) ;
#114 = FACE_OUTER_BOUND ( 'NONE', #25, .T. ) ;
#115 = CIRCLE ( 'NONE', #328, 11.00000000000000000 ) ;
#116 = EDGE_LOOP ( 'NONE', ( #23 ) ) ;
#117 = ADVANCED_FACE ( 'NONE', ( #33, #267 ), #195, .T. ) ;
#118 = EDGE_LOOP ( 'NONE', ( #263 ) ) ;
#119 = FACE_OUTER_BOUND ( 'NONE', #90, .T. ) ;
#120 = DESIGN_CONTEXT ( 'detailed design', #63, 'design' ) ;
#121 = APPROVAL_DATE_TIME ( #145, #66 ) ;
#122 = FACE_OUTER_BOUND ( 'NONE', #118, .T. ) ;
#123 = AXIS2_PLACEMENT_3D ( 'NONE', #205, #70, #269 ) ;
#124 = PERSON_AND_ORGANIZATION ( #282, #327 ) ;
#125 = PERSON_AND_ORGANIZATION ( #282, #327 ) ;
#126 = MECHANICAL_CONTEXT ( 'NONE', #316, 'mechanical' ) ;
#127 = EDGE_LOOP ( 'NONE', ( #210 ) ) ;
#128 = PRODUCT_DEFINITION ( 'UNKNOWN', '', #285, #120 ) ;
#129 = AXIS2_PLACEMENT_3D ( 'NONE', #104, #86, #163 ) ;
#130 = CARTESIAN_POINT ( 'NONE',  ( 13.69999999999999751, 0.000000000000000000, 0.000000000000000000 ) ) ;
#131 = AXIS2_PLACEMENT_3D ( 'NONE', #18, #310, #183 ) ;
#132 = ORIENTED_EDGE ( 'NONE', *, *, #314, .F. ) ;
#133 = VERTEX_POINT ( 'NONE', #3 ) ;
#134 = VERTEX_POINT ( 'NONE', #200 ) ;
#135 = FACE_OUTER_BOUND ( 'NONE', #78, .T. ) ;
#136 = CARTESIAN_POINT ( 'NONE',  ( 0.000000000000000000, 11.29999999999999716, 0.000000000000000000 ) ) ;
#137 = CIRCLE ( 'NONE', #168, 20.00000000000000000 ) ;
#138 = DIRECTION ( 'NONE',  ( 1.000000000000000000, 0.000000000000000000, 0.000000000000000000 ) ) ;
#139 = CARTESIAN_POINT ( 'NONE',  ( 0.000000000000000000, 0.000000000000000000, 0.000000000000000000 ) ) ;
#140 = ORIENTED_EDGE ( 'NONE', *, *, #253, .T. ) ;
#141 = EDGE_CURVE ( 'NONE', #56, #56, #236, .T. ) ;
#142 = CIRCLE ( 'NONE', #280, 11.29999999999999716 ) ;
#143 = EDGE_LOOP ( 'NONE', ( #166 ) ) ;
#144 = DIRECTION ( 'NONE',  ( -1.000000000000000000, -0.000000000000000000, -0.000000000000000000 ) ) ;
#145 = DATE_AND_TIME ( #169, #234 ) ;
#146 = SECURITY_CLASSIFICATION ( '', '', #217 ) ;
#147 = FACE_BOUND ( 'NONE', #102, .T. ) ;
#148 = DATE_AND_TIME ( #271, #113 ) ;
#149 = DIRECTION ( 'NONE',  ( -1.000000000000000000, -0.000000000000000000, -0.000000000000000000 ) ) ;
#150 = ADVANCED_FACE ( 'NONE', ( #122, #119 ), #312, .F. ) ;
#151 = ORIENTED_EDGE ( 'NONE', *, *, #72, .F. ) ;
#152 = PERSON_AND_ORGANIZATION ( #282, #327 ) ;
#153 = APPROVAL_PERSON_ORGANIZATION ( #125, #212, #295 ) ;
#154 = ORIENTED_EDGE ( 'NONE', *, *, #72, .T. ) ;
#155 = AXIS2_PLACEMENT_3D ( 'NONE', #221, #99, #106 ) ;
#156 = APPROVAL_STATUS ( 'not_yet_approved' ) ;
#157 = CARTESIAN_POINT ( 'NONE',  ( 4.071796769724493004, 0.000000000000000000, 16.00000000000000000 ) ) ;
#158 = CARTESIAN_POINT ( 'NONE',  ( 10.99999999999999645, 0.000000000000000000, 20.00000000000000000 ) ) ;
#159 = CC_DESIGN_PERSON_AND_ORGANIZATION_ASSIGNMENT ( #124, #96, ( #285 ) ) ;
#160 = DIRECTION ( 'NONE',  ( 0.000000000000000000, 0.000000000000000000, -1.000000000000000000 ) ) ;
#161 = FACE_OUTER_BOUND ( 'NONE', #245, .T. ) ;
#162 = CARTESIAN_POINT ( 'NONE',  ( 0.000000000000000000, 0.000000000000000000, 0.000000000000000000 ) ) ;
#163 = DIRECTION ( 'NONE',  ( 0.000000000000000000, 0.000000000000000000, 1.000000000000000000 ) ) ;
#164 = EDGE_CURVE ( 'NONE', #255, #255, #272, .T. ) ;
#165 = EDGE_LOOP ( 'NONE', ( #140 ) ) ;
#166 = ORIENTED_EDGE ( 'NONE', *, *, #47, .F. ) ;
#167 = CYLINDRICAL_SURFACE ( 'NONE', #224, 16.00000000000000000 ) ;
#168 = AXIS2_PLACEMENT_3D ( 'NONE', #206, #59, #231 ) ;
#169 = CALENDAR_DATE ( 2025, 30, 5 ) ;
#170 = DIRECTION ( 'NONE',  ( 0.000000000000000000, 0.000000000000000000, -1.000000000000000000 ) ) ;
#171 = DATE_AND_TIME ( #220, #250 ) ;
#172 = AXIS2_PLACEMENT_3D ( 'NONE', #182, #204, #259 ) ;
#173 =( LENGTH_UNIT ( ) NAMED_UNIT ( * ) SI_UNIT ( .MILLI., .METRE. ) );
#174 = AXIS2_PLACEMENT_3D ( 'NONE', #112, #144, #215 ) ;
#175 = COORDINATED_UNIVERSAL_TIME_OFFSET ( 2, 0, .AHEAD. ) ;
#176 = ADVANCED_FACE ( 'NONE', ( #318, #82 ), #265, .T. ) ;
#177 = EDGE_LOOP ( 'NONE', ( #292 ) ) ;
#178 = CLOSED_SHELL ( 'NONE', ( #100, #117, #279, #181, #324, #196, #150, #201, #219, #89, #300, #176 ) ) ;
#179 = DIRECTION ( 'NONE',  ( -1.000000000000000000, -0.000000000000000000, -0.000000000000000000 ) ) ;
#180 = VERTEX_POINT ( 'NONE', #2 ) ;
#181 = ADVANCED_FACE ( 'NONE', ( #67, #92 ), #77, .T. ) ;
#182 = CARTESIAN_POINT ( 'NONE',  ( 14.00000000000000000, 0.000000000000000000, 0.000000000000000000 ) ) ;
#183 = DIRECTION ( 'NONE',  ( 0.000000000000000000, 0.000000000000000000, 1.000000000000000000 ) ) ;
#184 = DIRECTION ( 'NONE',  ( 0.000000000000000000, 0.000000000000000000, 1.000000000000000000 ) ) ;
#185 = APPROVAL_PERSON_ORGANIZATION ( #214, #66, #42 ) ;
#186 = DIRECTION ( 'NONE',  ( -1.000000000000000000, 0.000000000000000000, -0.000000000000000000 ) ) ;
#187 = DIRECTION ( 'NONE',  ( 0.000000000000000000, 0.000000000000000000, 1.000000000000000000 ) ) ;
#188 = DIRECTION ( 'NONE',  ( 0.000000000000000000, 0.000000000000000000, 1.000000000000000000 ) ) ;
#189 = EDGE_LOOP ( 'NONE', ( #274 ) ) ;
#190 = ORIENTED_EDGE ( 'NONE', *, *, #55, .T. ) ;
#191 = CARTESIAN_POINT ( 'NONE',  ( 0.2999999999999999889, 0.000000000000000000, 0.000000000000000000 ) ) ;
#192 = DIRECTION ( 'NONE',  ( 1.000000000000000000, 0.000000000000000000, 0.000000000000000000 ) ) ;
#193 = COORDINATED_UNIVERSAL_TIME_OFFSET ( 2, 0, .AHEAD. ) ;
#194 = CARTESIAN_POINT ( 'NONE',  ( 0.000000000000000000, 0.000000000000000000, 0.000000000000000000 ) ) ;
#195 = CONICAL_SURFACE ( 'NONE', #313, 16.00000000000000000, 1.308996938995746095 ) ;
#196 = ADVANCED_FACE ( 'NONE', ( #147, #294 ), #93, .F. ) ;
#197 = COORDINATED_UNIVERSAL_TIME_OFFSET ( 2, 0, .AHEAD. ) ;
#198 = ORIENTED_EDGE ( 'NONE', *, *, #55, .F. ) ;
#199 = EDGE_LOOP ( 'NONE', ( #154 ) ) ;
#200 = CARTESIAN_POINT ( 'NONE',  ( 0.000000000000000000, 0.000000000000000000, 19.69999999999999929 ) ) ;
#201 = ADVANCED_FACE ( 'NONE', ( #242, #287 ), #109, .F. ) ;
#202 = DIRECTION ( 'NONE',  ( -1.000000000000000000, -0.000000000000000000, -0.000000000000000000 ) ) ;
#203 = FACE_OUTER_BOUND ( 'NONE', #177, .T. ) ;
#204 = DIRECTION ( 'NONE',  ( -1.000000000000000000, -0.000000000000000000, -0.000000000000000000 ) ) ;
#205 = CARTESIAN_POINT ( 'NONE',  ( 0.000000000000000000, 0.000000000000000000, 0.000000000000000000 ) ) ;
#206 = CARTESIAN_POINT ( 'NONE',  ( 0.2999999999999999889, 0.000000000000000000, 0.000000000000000000 ) ) ;
#207 = LOCAL_TIME ( 12, 26, 52.00000000000000000, #251 ) ;
#208 = FACE_BOUND ( 'NONE', #211, .T. ) ;
#209 = VERTEX_POINT ( 'NONE', #5 ) ;
#210 = ORIENTED_EDGE ( 'NONE', *, *, #264, .T. ) ;
#211 = EDGE_LOOP ( 'NONE', ( #76 ) ) ;
#212 = APPROVAL ( #319, 'UNSPECIFIED' ) ;
#213 = DIRECTION ( 'NONE',  ( -1.000000000000000000, -0.000000000000000000, -0.000000000000000000 ) ) ;
#214 = PERSON_AND_ORGANIZATION ( #282, #327 ) ;
#215 = DIRECTION ( 'NONE',  ( 0.000000000000000000, 0.000000000000000000, 1.000000000000000000 ) ) ;
#216 = CIRCLE ( 'NONE', #24, 20.00000000000000000 ) ;
#217 = SECURITY_CLASSIFICATION_LEVEL ( 'unclassified' ) ;
#218 = PERSON_AND_ORGANIZATION_ROLE ( 'creator' ) ;
#219 = ADVANCED_FACE ( 'NONE', ( #135, #229 ), #110, .F. ) ;
#220 = CALENDAR_DATE ( 2025, 30, 5 ) ;
#221 = CARTESIAN_POINT ( 'NONE',  ( 0.000000000000000000, 0.000000000000000000, 0.000000000000000000 ) ) ;
#222 = CARTESIAN_POINT ( 'NONE',  ( 9.928203230275503444, 0.000000000000000000, 0.000000000000000000 ) ) ;
#223 = CC_DESIGN_APPROVAL ( #66, ( #128 ) ) ;
#224 = AXIS2_PLACEMENT_3D ( 'NONE', #162, #7, #232 ) ;
#225 = EDGE_LOOP ( 'NONE', ( #291 ) ) ;
#226 = FACE_OUTER_BOUND ( 'NONE', #38, .T. ) ;
#227 = CARTESIAN_POINT ( 'NONE',  ( 13.69999999999999396, 0.000000000000000000, 20.00000000000000000 ) ) ;
#228 = CARTESIAN_POINT ( 'NONE',  ( 14.00000000000000000, 0.000000000000000000, 19.69999999999998863 ) ) ;
#229 = FACE_BOUND ( 'NONE', #225, .T. ) ;
#230 = AXIS2_PLACEMENT_3D ( 'NONE', #284, #290, #170 ) ;
#231 = DIRECTION ( 'NONE',  ( 0.000000000000000000, 0.000000000000000000, 1.000000000000000000 ) ) ;
#232 = DIRECTION ( 'NONE',  ( 0.000000000000000000, 0.000000000000000000, 1.000000000000000000 ) ) ;
#233 = DIRECTION ( 'NONE',  ( -1.000000000000000000, -0.000000000000000000, -0.000000000000000000 ) ) ;
#234 = LOCAL_TIME ( 12, 26, 52.00000000000000000, #197 ) ;
#235 = ORIENTED_EDGE ( 'NONE', *, *, #12, .F. ) ;
#236 = CIRCLE ( 'NONE', #46, 16.00000000000000000 ) ;
#237 = EDGE_LOOP ( 'NONE', ( #65 ) ) ;
#238 = EDGE_CURVE ( 'NONE', #30, #30, #320, .T. ) ;
#239 = DIRECTION ( 'NONE',  ( 0.000000000000000000, 0.000000000000000000, 1.000000000000000000 ) ) ;
#240 = COORDINATED_UNIVERSAL_TIME_OFFSET ( 2, 0, .AHEAD. ) ;
#241 = PRODUCT_DEFINITION_SHAPE ( 'NONE', 'NONE',  #128 ) ;
#242 = FACE_OUTER_BOUND ( 'NONE', #317, .T. ) ;
#243 = PERSON_AND_ORGANIZATION ( #282, #327 ) ;
#244 = DATE_AND_TIME ( #273, #43 ) ;
#245 = EDGE_LOOP ( 'NONE', ( #50 ) ) ;
#246 = DIRECTION ( 'NONE',  ( 0.000000000000000000, 0.000000000000000000, 1.000000000000000000 ) ) ;
#247 = UNCERTAINTY_MEASURE_WITH_UNIT (LENGTH_MEASURE( 1.000000000000000082E-05 ), #173, 'distance_accuracy_value', 'NONE');
#248 = AXIS2_PLACEMENT_3D ( 'NONE', #139, #233, #184 ) ;
#249 = EDGE_CURVE ( 'NONE', #133, #133, #261, .T. ) ;
#250 = LOCAL_TIME ( 12, 26, 52.00000000000000000, #240 ) ;
#251 = COORDINATED_UNIVERSAL_TIME_OFFSET ( 2, 0, .AHEAD. ) ;
#252 = AXIS2_PLACEMENT_3D ( 'NONE', #49, #149, #325 ) ;
#253 = EDGE_CURVE ( 'NONE', #105, #105, #137, .T. ) ;
#254 = APPROVAL_DATE_TIME ( #80, #51 ) ;
#255 = VERTEX_POINT ( 'NONE', #227 ) ;
#256 = DIRECTION ( 'NONE',  ( -1.000000000000000000, -0.000000000000000000, -0.000000000000000000 ) ) ;
#257 = PRODUCT_RELATED_PRODUCT_CATEGORY ( 'detail', '', ( #16 ) ) ;
#258 = DIRECTION ( 'NONE',  ( -1.000000000000000000, -0.000000000000000000, -0.000000000000000000 ) ) ;
#259 = DIRECTION ( 'NONE',  ( 0.000000000000000000, 0.000000000000000000, 1.000000000000000000 ) ) ;
#260 = DIRECTION ( 'NONE',  ( 1.000000000000000000, 0.000000000000000000, 0.000000000000000000 ) ) ;
#261 = CIRCLE ( 'NONE', #129, 10.99999999999999822 ) ;
#262 = CARTESIAN_POINT ( 'NONE',  ( 10.99999999999999645, 0.000000000000000000, 0.000000000000000000 ) ) ;
#263 = ORIENTED_EDGE ( 'NONE', *, *, #41, .F. ) ;
#264 = EDGE_CURVE ( 'NONE', #81, #81, #216, .T. ) ;
#265 = CONICAL_SURFACE ( 'NONE', #230, 20.00000000000000000, 1.308996938995746762 ) ;
#266 = ORIENTED_EDGE ( 'NONE', *, *, #249, .F. ) ;
#267 = FACE_BOUND ( 'NONE', #103, .T. ) ;
#268 =( NAMED_UNIT ( * ) PLANE_ANGLE_UNIT ( ) SI_UNIT ( $, .RADIAN. ) );
#269 = DIRECTION ( 'NONE',  ( 0.000000000000000000, 0.000000000000000000, 1.000000000000000000 ) ) ;
#270 = CC_DESIGN_SECURITY_CLASSIFICATION ( #146, ( #285 ) ) ;
#271 = CALENDAR_DATE ( 2025, 30, 5 ) ;
#272 = CIRCLE ( 'NONE', #131, 20.00000000000000000 ) ;
#273 = CALENDAR_DATE ( 2025, 30, 5 ) ;
#274 = ORIENTED_EDGE ( 'NONE', *, *, #41, .T. ) ;
#275 = EDGE_LOOP ( 'NONE', ( #198 ) ) ;
#276 = CC_DESIGN_PERSON_AND_ORGANIZATION_ASSIGNMENT ( #243, #218, ( #285 ) ) ;
#277 = AXIS2_PLACEMENT_3D ( 'NONE', #9, #256, #187 ) ;
#278 = AXIS2_PLACEMENT_3D ( 'NONE', #194, #91, #192 ) ;
#279 = ADVANCED_FACE ( 'NONE', ( #311, #161 ), #8, .T. ) ;
#280 = AXIS2_PLACEMENT_3D ( 'NONE', #101, #179, #246 ) ;
#281 = CARTESIAN_POINT ( 'NONE',  ( 0.000000000000000000, 0.000000000000000000, 11.29999999999999716 ) ) ;
#282 = PERSON ( 'UNSPECIFIED', 'UNSPECIFIED', 'UNSPECIFIED', ('UNSPECIFIED'), ('UNSPECIFIED'), ('UNSPECIFIED') ) ;
#283 = CARTESIAN_POINT ( 'NONE',  ( 2.999999999999997780, 0.000000000000000000, 20.00000000000000000 ) ) ;
#284 = CARTESIAN_POINT ( 'NONE',  ( 10.99999999999999645, 0.000000000000000000, 0.000000000000000000 ) ) ;
#285 = PRODUCT_DEFINITION_FORMATION_WITH_SPECIFIED_SOURCE ( 'ANY', '', #16, .NOT_KNOWN. ) ;
#286 = PLANE ( 'NONE',  #10 ) ;
#287 = FACE_BOUND ( 'NONE', #189, .T. ) ;
#288 = CIRCLE ( 'NONE', #155, 19.69999999999999929 ) ;
#289 = CARTESIAN_POINT ( 'NONE',  ( 0.000000000000000000, 0.000000000000000000, 0.000000000000000000 ) ) ;
#290 = DIRECTION ( 'NONE',  ( 1.000000000000000000, 0.000000000000000000, 0.000000000000000000 ) ) ;
#291 = ORIENTED_EDGE ( 'NONE', *, *, #12, .T. ) ;
#292 = ORIENTED_EDGE ( 'NONE', *, *, #141, .F. ) ;
#293 = AXIS2_PLACEMENT_3D ( 'NONE', #289, #202, #83 ) ;
#294 = FACE_OUTER_BOUND ( 'NONE', #315, .T. ) ;
#295 = APPROVAL_ROLE ( '' ) ;
#296 = CC_DESIGN_APPROVAL ( #212, ( #285 ) ) ;
#297 = CIRCLE ( 'NONE', #252, 11.29999999999999716 ) ;
#298 = PERSON_AND_ORGANIZATION ( #282, #327 ) ;
#299 = DIRECTION ( 'NONE',  ( -1.000000000000000000, -0.000000000000000000, -0.000000000000000000 ) ) ;
#300 = ADVANCED_FACE ( 'NONE', ( #114, #226 ), #111, .T. ) ;
#301 = DIRECTION ( 'NONE',  ( -1.000000000000000000, -0.000000000000000000, -0.000000000000000000 ) ) ;
#302 = DIRECTION ( 'NONE',  ( 0.000000000000000000, 0.000000000000000000, 1.000000000000000000 ) ) ;
#303 = APPROVAL_ROLE ( '' ) ;
#304 = FACE_BOUND ( 'NONE', #275, .T. ) ;
#305 = CARTESIAN_POINT ( 'NONE',  ( 0.2999999999999999889, 0.000000000000000000, 20.00000000000000000 ) ) ;
#306 = AXIS2_PLACEMENT_3D ( 'NONE', #191, #260, #44 ) ;
#307 = CARTESIAN_POINT ( 'NONE',  ( 4.071796769724493004, 0.000000000000000000, 0.000000000000000000 ) ) ;
#308 = CC_DESIGN_PERSON_AND_ORGANIZATION_ASSIGNMENT ( #21, #98, ( #128 ) ) ;
#309 = DIRECTION ( 'NONE',  ( 0.000000000000000000, 0.000000000000000000, 1.000000000000000000 ) ) ;
#310 = DIRECTION ( 'NONE',  ( -1.000000000000000000, -0.000000000000000000, -0.000000000000000000 ) ) ;
#311 = FACE_OUTER_BOUND ( 'NONE', #64, .T. ) ;
#312 = CYLINDRICAL_SURFACE ( 'NONE', #97, 11.00000000000000000 ) ;
#313 = AXIS2_PLACEMENT_3D ( 'NONE', #307, #213, #35 ) ;
#314 = EDGE_CURVE ( 'NONE', #32, #32, #68, .T. ) ;
#315 = EDGE_LOOP ( 'NONE', ( #190 ) ) ;
#316 = APPLICATION_CONTEXT ( 'configuration controlled 3d designs of mechanical parts and assemblies' ) ;
#317 = EDGE_LOOP ( 'NONE', ( #235 ) ) ;
#318 = FACE_BOUND ( 'NONE', #143, .T. ) ;
#319 = APPROVAL_STATUS ( 'not_yet_approved' ) ;
#320 = CIRCLE ( 'NONE', #277, 20.00000000000000000 ) ;
#321 = DIRECTION ( 'NONE',  ( -1.000000000000000000, -0.000000000000000000, -0.000000000000000000 ) ) ;
#322 = PERSON_AND_ORGANIZATION ( #282, #327 ) ;
#323 =( NAMED_UNIT ( * ) SI_UNIT ( $, .STERADIAN. ) SOLID_ANGLE_UNIT ( ) );
#324 = ADVANCED_FACE ( 'NONE', ( #304, #62 ), #286, .F. ) ;
#325 = DIRECTION ( 'NONE',  ( 0.000000000000000000, 0.000000000000000000, 1.000000000000000000 ) ) ;
#326 = DIRECTION ( 'NONE',  ( 0.000000000000000000, 0.000000000000000000, 1.000000000000000000 ) ) ;
#327 = ORGANIZATION ( 'UNSPECIFIED', 'UNSPECIFIED', '' ) ;
#328 = AXIS2_PLACEMENT_3D ( 'NONE', #130, #301, #302 ) ;
#329 = EDGE_LOOP ( 'NONE', ( #151 ) ) ;
ENDSEC;
END-ISO-10303-21;
